Inicio » Guitarra Básica para Principiantes » Tocar el Diapasón de la Guitarra

Tocar el Diapasón de la Guitarra

Primera posición ¿Qué significa? Nos referimos al diapasón de la guitarra, entre sus primeos tres trastes. Te recomiendo que utilices una púa, y que hagas uso del Plumilleo Alternado (primero hacia abajo y luego hacia arriba). El objetivo es recorrer las notas de la prime44ra posición desde E de la 6ta. cuerda, hasta el G de la 1ra. cuerda. Tienes que nombrar la nota que vayas tocando. Este ejemplo lo pongo a continuación para que sea más sencillo entender:

       E   F   G   A   B   C   D   E   F   G   A   B   C   D   E   F   G

    |----------------------------------------------------------0---1---3---|
    |----------------------------------------------0---1---3---------------|
    |--------------------------------------0---2---------------------------|
    |--------------------------0---2---3-----------------------------------|
    |--------------0---2---3-----------------------------------------------|
    |--0---1---3-----------------------------------------------------------|

       -   1   3   -   2   3   -   2   3   0   2   -   1   3   -   1   3
Primera posición en guitarra: las claves para comprender cómo digitar nuestros dedos en el diapasón y arpegiar cuerda por cuerda de manera correcta.

 

Los números que están abajo de la tablatura indican el dedo de la mano izquierda que vas a utilizar para pulsar la nota en el diapasón. El signo (–) significa que no se utiliza ningún dedo, ya que la cuerda se toca al aire.

Co0mo recomendación indico que sigas cantando el nombre de la nota que vas tocando, y que cuando llegues a la nota de G de la 1ra. cuerda, que regreses a tocar las notas pero de forma descendente, de ésta manera:

       G   F   E   D   C   B   A   G   F   E   D   C   B   A   G   F   E

    |--3---1---0-----------------------------------------------------------|
    |--------------3---1---0-----------------------------------------------|
    |--------------------------2---0---------------------------------------|
    |----------------------------------3---2---0---------------------------|
    |----------------------------------------------3---2---0---------------|
    |----------------------------------------------------------3---1---0---|

       3   1   -   3   1   -   2   -   3   2   -   3   2   -   3   1   -

Deja un comentario

Tu dirección de correo electrónico no será publicada. Los campos obligatorios están marcados con *