Inicio » Entradas etiquetadas como 'posiciones de guitarra acustica'

Archivo de la etiqueta: posiciones de guitarra acustica

Cómo usar la Mano Derecha para tocar Guitarra

Mano derechaEn ésta lección empezaremos a estudiar los principios de la técnica de la mano abierta o libre. Cada mano tiene un rol al tocar guitarra, por lo que aprenderás a usar de ella, los dedos índice y medio de la mano derecha (izquierda si eres zurdo) para tocar notas. Recomendamos tener las uñas cortas.

A los dedos de la mano derecha se les asignan las letras iniciales de su nombre en español: p (pulgar), i (índice), m (medio) y a (anular). Esta notación se utiliza para indicar la digitación de escalas, arpegios y melodías. Como te dije anteriormente, en ésta lección sólo usaremos los dedos índice y el medio; y el pulgar, que sólo nos servirá para facilitarnos el uso de uno de éstos dos golpes. Existen dos técnicas para golpear las cuerdas con éstos dos dedos: el Golpe Apoyado y el Golpe Libre.

                                   

Golpe apoyadoGolpe Apoyado: Este golpe es el más fundamental y conveniente cuando se tocan sucesiones de notas sencillas en la guitarra, se utiliza cuando determinado énfasis se requiere. También es la manera de obtener un tono claro y fuerte, probablemente su uso es la gran diferencia entre un guitarrista profesional y uno amateur al saber como y donde usarlo. Te explico éste golpe dividiéndolo en dos pasos:

  1. Preparación: La punta del dedo indicado se apoya en la cuerda que va a ser tocada.
  2. Consumación: El dedo toca la cuerda y después descansa en la cuerda de arriba con el esfuerzo muscular.

Para darle facilidad a éste golpe apoya tu dedo pulgar en la sexta cuerda. En la siguiente tablatura te muestro un ejercicio para que utilices ésta técnica. En el tienes que alternar los dedos índice y medio para tocar la primera cuerda al aire (cuerda de Mi) 16 veces. Recuerda, apoya el dedo con que tocaste la primera cuerda en la 2da. cuerda.

i   m   i   m   i   m   i   m      i   m   i   m   i   m   i   m

 |--0---0---0---0---0---0---0---0---|--0---0---0---0---0---0---0---0---|
 |----------------------------------|----------------------------------|
 |----------------------------------|----------------------------------|
 |----------------------------------|----------------------------------|
 |----------------------------------|----------------------------------|
 |----------------------------------|----------------------------------|
         

Golpe Libre

Golpe libreBueno, lo contrario al golpe apoyado. No apoyes el dedo pulgar en la sexta cuerda y el dedo que debe tocar la nota indicada (índice o medio) no debe apoyarse en la cuerda superior. El golpe libre se usa en los arpegios, donde el apoyado podría inhibir velocidad, o para el contraste tonal con el golpe apoyado, o en casos en donde un golpe apoyado haria que se tocara la cuerda superior cuando esta debe de seguir sonando.

Realiza el mismo ejercicio de arriba pero con golpes libres. También realiza los dos tipos de golpes (o ataques) pero empezando con el dedo medio:

m   i   m   i   m   i   m   i      m   i   m   i   m   i   m   i

|--0---0---0---0---0---0---0---0---|--0---0---0---0---0---0---0---0---|
|----------------------------------|----------------------------------|
|----------------------------------|----------------------------------|
|----------------------------------|----------------------------------|
|----------------------------------|----------------------------------|
|----------------------------------|----------------------------------|

Posiciones en guitarra: la primera posición

La razón del porque estamos empezando a pulsar notas y no empezar a tocar los acordes, es para que los dedos de la mano izquierda se te vallan afianzando al diapasón de la guitarra; pulsando primero las notas te dará más seguridad para poder tocar los acordes con más comodidad.

Primera posición en guitarra: las claves para comprender cómo digitar nuestros dedos en el diapasón y arpegiar cuerda por cuerda de manera correcta.

 

Primera posición ¿Qué significa? Con ése término me refiero a cierta área en el diapasón de la guitarra, que esta entre los tres primeros trastes. Te recomiendo que utilices una plumilla (púa), y que hagas uso del Plumilleo Alternado (primero hacia abajo y luego hacia arriba). El objetivo es recorrer las notas de la primera posición desde E de la 6ta. cuerda, hasta el G de la 1ra. cuerda. Tienes que nombrar la nota que vayas tocando. Este ejemplo lo pongo a continuación para que sea más sencillo entender:

       E   F   G   A   B   C   D   E   F   G   A   B   C   D   E   F   G

    |----------------------------------------------------------0---1---3---|
    |----------------------------------------------0---1---3---------------|
    |--------------------------------------0---2---------------------------|
    |--------------------------0---2---3-----------------------------------|
    |--------------0---2---3-----------------------------------------------|
    |--0---1---3-----------------------------------------------------------|

       -   1   3   -   2   3   -   2   3   0   2   -   1   3   -   1   3

Los números que están abajo de la tablatura indican el dedo de la mano izquierda que vas a utilizar para pulsar la nota en el diapasón. El signo (–) significa que no se utiliza ningún dedo, ya que la cuerda se toca al aire.

Te recomiendo que vayas cantando el nombre de la nota que vas tocando, y que cuando llegues a la nota de G de la 1ra. cuerda, te devuelvas, es decir, que vuelvas a tocar las notas pero de forma descendente, de ésta manera:

       G   F   E   D   C   B   A   G   F   E   D   C   B   A   G   F   E

    |--3---1---0-----------------------------------------------------------|
    |--------------3---1---0-----------------------------------------------|
    |--------------------------2---0---------------------------------------|
    |----------------------------------3---2---0---------------------------|
    |----------------------------------------------3---2---0---------------|
    |----------------------------------------------------------3---1---0---|

       3   1   -   3   1   -   2   -   3   2   -   3   2   -   3   1   -