Inicio » Entradas etiquetadas como «dedos mano izquierda velocidad en guitarra española. ejercicios»

Archivos de la etiqueta: dedos mano izquierda velocidad en guitarra española. ejercicios

Tocar Guitarra con la Mano Izquierda

Este ejercicio se llama cromático: porque en él se incluyen las 12 notas existentes, las notas con nombre propio y las otras (sostenidos y bemoles). 
 
Mano izquierda en guitarra: Es muy importante que tienes que recordar para realizar el ejercicio, a diferencia de la notación de los dedos de la mano derecha que es con sus iniciales, los dedos de la mano izquierda se nombran con números excluyendo al pulgar: 1-índice, 2-medio, 3-anular y 4-meñique.

 

Primera Parte: Este es el orden en que vas a utilizar tus dedos de la mano izquierda en cada compás (o separaciones en la tablatura): 1 – 2 – 3 – 4. Irás subiendo de trastes, desde el primero hasta el noveno. Aconsejamos: relajar tu mano derecha, trata de ir lento, tratando de no errar en cada pisada, procurando que cada nota que pises tenga un sonido claro. Cada nota debe tener la misma duración de sonido.En la parte superior de la tablatura indicamos dos técnicas de golpear las cuerdas para practicar el ejercicio: usando los dedos índice y medio (usa el golpe apoyado y luego el libre) y el Plumilleo Alternado (con púa). Los números de abajo de la tablatura te indican con que dedo de la mano izquierda debes presionar la nota que se te indica.

   i  m  i  m    i  m  i  m    i  m  i  m    i  m  i  m   etc.
   ^  v  ^  v    ^  v  ^  v    ^  v  ^  v    ^  v  ^  v   etc.

 |-1--2--3--4--|-2--3--4--5--|-3--4--5--6--|-4--5--6--7--|-5--6--7--8--|
 |-------------|-------------|-------------|-------------|-------------|
 |-------------|-------------|-------------|-------------|-------------|
 |-------------|-------------|-------------|-------------|-------------|
 |-------------|-------------|-------------|-------------|-------------|
 |-------------|-------------|-------------|-------------|-------------|
   1  2  3  4    1  2  3  4    1  2  3  4    1  2  3  4    1  2  3  4

 |-6--7--8--9--|-7--8--9--10--|-8--9--10--11--|-9--10--11--12--||
 |-------------|--------------|---------------|----------------||
 |-------------|--------------|---------------|----------------||
 |-------------|--------------|---------------|----------------||
 |-------------|--------------|---------------|----------------||
 |-------------|--------------|---------------|----------------||
   1  2  3  4    1  2  3   4    1  2   3   4    1   2   3   4

Segunda Parte: Ahora el orden en que comenzarás a utilizar los dedos de la mano izquierda en cada compás (o separación) será: 4 – 3 – 2 – 1. Hay que comenzar en el traste 12 y terminar en el 1er. traste. La palma de la mano izquierda no debe tocar el mástil de la guitarra.

    i   m   i  m     i   m  i  m     i  m  i  m    i  m  i  m    etc.
    ^   v   ^  v     ^   v  ^  v     ^  v  ^  v    ^  v  ^  v    etc.

 |-12--11--10--9--|-11--10--9--8--|-10--9--8--7--|-9--8--7--6--|-8--7--6--5--|
 |----------------|---------------|--------------|-------------|-------------|
 |----------------|---------------|--------------|-------------|-------------|
 |----------------|---------------|--------------|-------------|-------------|
 |----------------|---------------|--------------|-------------|-------------|
 |----------------|---------------|--------------|-------------|-------------|
    4   3   2  1     4   3  2  1     4  3  2  1    4  3  2  1    4  3  2  1

 |-7--6--5--4--|-6--5--4--3--|-5--4--3--2--|-4--3--2--1--||
 |-------------|-------------|-------------|-------------||
 |-------------|-------------|-------------|-------------||
 |-------------|-------------|-------------|-------------||
 |-------------|-------------|-------------|-------------||
 |-------------|-------------|-------------|-------------||
   4  3  2  1    4  3  2  1    4  3  2  1    4  3  2  1

Tercera Parte: Juntarás ambas partes: empiezas en el 1er. traste con el mecanismo 1-2-3-4 hasta el traste 12, y regresas con el mecanismo 4-3-2-1 del traste 12 al 1ro. sin detenerte.

Un vicio muy común cuando se empieza a tocar la guitarra, es querer correr mucho enseguida, debemos pensar que la velocidad siempre viene después de la precisión y con ello la calidad en el sonido que producimos.

Si has podido comprender el ejercicio, es importante que lo practiques a diario, que practiques tu «Araña».