Las escalas pentatónicas son las más usadas dentro del rock y el blues, también ejecutadas de otras formas llegan a ser usadas en la música oriental e indígena de América.

Para poder abarcar una octava en el diapasón se dispone de 5 posiciones. Aquí paso las tres primeras en LA:

Escalas pentatónicas: ejemplos.   clases de guitarra gratis, clases de guitarra electrica, clases de guitarra flamenca

La forma más sencilla de uso es sobre la misma tonalidad que estoy tocando. Ejemplo: si mi tema se encuentra en LA Mayor, uso la pentatónica en LA.

LA7 RE7 LA7 MI7

Esto queda muy bien sobre los acordes de séptima, suena muy rockero o blusero, pero si mi base está en una tonalidad de LA Mayor (sin séptima) se puede optar por la pentatónica en FA#, que podría quedar mejor:

LA RE LA MI

O sea que uso la pentatónica un tono y medio abajo de la tonalidad (sobre lo que se llama la relativa menor de una tonalidad mayor), esto le da un toque más melodioso y no tan duro a la pentatónica.

Hay una tercer opción, menos convencional, y que logra un sonido muy jazzero.
Sacando la nota Blue, se ejecuta la pentatónica un semitono más abajo de la tonalidad. Uso la pentatónica en SOL# (sin la nota Blue).

LA RE LA MI

En esta opción hay que tener más cuidado en la aplicación, ya que se producen disonancias.

Sobre el LA: el RE# de la escala con el MI del acorde.
Sobre el RE: el RE# de la escala con el RE del acorde.
Sobre el MI: el RE# de la escala con el MI del acorde.

La aplicación de esta escala en la música oriental e indígena se hace siempre sin la nota Blue.

Queda abierta la exploración y búsqueda a cada persona, no se queden solamente con esta forma de usarla, ya que hay muchisimas posibilidades. Yo recomiendo transportar estas escalas a todas las tonalidades y aprender exactamente dónde está la tónica, para facilitar su uso en cualquier tonalidad.

Escalas pentatónicas: ejemplos.   clases de guitarra gratis, clases de guitarra electrica, clases de guitarra flamenca
, , , , ,

En estos ejercicios utilizaremos escalas pentatónicas mayores y menores en diferentes tonalidades, la peculiaridad que tienen es que recorremos prácticamente todo el mástil en el ejercicio, combinando los diferentes patrones de cada escala, son ejercicios muy buenos para conseguir fluidez en los cambios de cuerda y coordinación. Es importante que al realizar el cambio de cuerda, este sea suave y fluido así lograremos sensación de continuidad en el ejercicio. Si por el contrario, somos bruscos al cambiar de cuerda el ejercicio no sonará bien, y perderemos la fluidez que finalmente hace que la ejecución sea correcta.

Practicad con un metrónomo e id aumentando la velocidad conforme vayáis perfeccionando los ejercicios, podéis ejecutarlos a base de púa contrapúa, ligados, economy picking, como queráis, empezad si queréis con la típica púa-contrapúa y una vez controlado podéis probar otras técnicas:

Escala pentatónica Mayor de Fa (3 notas por cuerda):

|-----17-15-13---------------------------------------------------------
|-----------------15-13-10---------------------------------------------
|-----------------------------12-10--7---------------------------------
|----------------------------------------10--7--5----------------------
|---------------------------------------------------8--5--3------------
|------------------------------------------------------------5--3--1---
|---------------------------------------------------------13--15--17---
|---------------------------------------------10--13--15---------------
|----------------------------------7--10--12---------------------------
|------------------------5--7--10--------------------------------------
|---------------3--5--8------------------------------------------------
|------1--3--5---------------------------------------------------------

Escala pentatónica Mayor de Fa (4 notas por cuerda):

|---------------------------------------------------------------------
|--------------------------------------------------------------18-----
|--------------------------------------------------17--19--22---------
|----------------------------------12--15--17--19---------------------
|-------------------8--10--12--15-------------------------------------
|------3--5--8--10----------------------------------------------------
|---------------------------------------------------------
|---------------------------------------------------------
|-------------------------------------------------17------
|-------------------------------------17--19--22----------
|---------------------12--15--17--20----------------------
|------8--10--13--15--------------------------------------

Escala pentatónica Menor de Re (3 notas por cuerda):

|-----17-15-13---------------------------------------------------------
|-----------------15-13-10---------------------------------------------
|-----------------------------12-10--7---------------------------------
|----------------------------------------10--7--5----------------------
|---------------------------------------------------8--5--3------------
|------------------------------------------------------------5--3--1---
|---------------------------------------------------------13--15--17---
|---------------------------------------------10--13--15---------------
|----------------------------------7--10--12---------------------------
|------------------------5--7--10--------------------------------------
|---------------3--5--8------------------------------------------------
|------1--3--5---------------------------------------------------------

Escala pentatónica Menor de Si (3 notas por cuerda):

|-----14-12-10---------------------------------------------------
|-----------------12-10------------------------------------------
|-------------------------11--9--7-------------------------------
|------------------------------------9--7--4---------------------
|---------------------------------------------7--5--2------------
|------------------------------------------------------5--2--0---
|--------------------------------------------------10-12-14------
|------------------------------------------10-12-----------------
|---------------------------------7--9-11------------------------
|------------------------4--7--9---------------------------------
|---------------2--5--7------------------------------------------
|------0--2--5---------------------------------------------------

Escala pentatónica Mayor de Sol (3 notas por cuerda):

|-----15-12-10--------------------------------------------------
|-----------------12-10--8---------------------------------------
|-----------------------------9--7-------------------------------
|-----------------------------------9--7--5----------------------
|--------------------------------------------7--5--2-------------
|-----------------------------------------------------5--3--0----
|-------------------------------------------------10-12-15------
|---------------------------------------8-10-12-----------------
|---------------------------------7--9--------------------------
|------------------------5--7--9--------------------------------
|---------------2--5--7-----------------------------------------
Escalas pentatónicas: ejercicios.   clases de guitarra gratis, clases de guitarra electrica, clases de guitarra flamenca
, , , , ,

Consiste en tocar varias notas solo con la mano izquierda (hasta puedes llegar a tocar 30 notas seguidas o mucho más) haciendo hammer-ons, pull-offs y slides seguidos, todo ésto tocando solo una o hasta no tocando la cuerda con la mano derecha o PUA.

En ésta técnica no hay más que práctica, práctica, práctica y práctica. El mayor problema es la falta de fuerza en la mano izquierda, esa sola la consigues practicado y tocando relajado.

E:-8p5h8p5h8p5h8p5—7p5h7p5h7p5h7p5—6p5h6p5h6p5h6p5—-
B:———————————————————————
G:———————————————————————
D:———————————————————————
A:———————————————————————
E:———————————————————————

E:-8p5h7p5h6p5h7p5——————————————-
B:—————————————————————
G:—————————————————————
D:—————————————————————
A:—————————————————————
E:—————————————————————

Tócalo en cada cuerda

E:-5h6h7h8p7p6p5h6h7—————————————-
B:—————————————————————
G:—————————————————————
D:—————————————————————
A:—————————————————————
E:—————————————————————

Es una técnica muy utilizada por Mark Knopfler, vocalista y guitarrista del grupo Dire Straits.

Legato o Ligato.   clases de guitarra gratis, clases de guitarra electrica, clases de guitarra flamenca
, , , , , ,

Ejercicio de generador de fuerza.

Consiste en levantar los dedos del diapasón, primero el índice y el anular, luego bajarlos pisando el diapasón y levantar el medio y el meñique.

NO ES TAN FÁCIL COMO PARECE.

Generador de fuerza (mano izquierda)   clases de guitarra gratis, clases de guitarra electrica, clases de guitarra flamenca Generador de fuerza (mano izquierda)   clases de guitarra gratis, clases de guitarra electrica, clases de guitarra flamenca Generador de fuerza (mano izquierda)   clases de guitarra gratis, clases de guitarra electrica, clases de guitarra flamenca
Figura 1 Figura 2 Figura 3
Generador de fuerza (mano izquierda)   clases de guitarra gratis, clases de guitarra electrica, clases de guitarra flamenca
, , , , ,

La celebración de la selección

_ No permita que gire mientras reacciona.
_ Asegúrese de que el agarre sea cómodo.
_ Asegúrese de tener un agarre firme.
_ Descanse su antebrazo sobre la guitarra para la estabilidad y el confort.

Aquí está una foto de la forma correcta de realizar una selección:
Técnica Flatpickin.   clases de guitarra gratis, clases de guitarra electrica, clases de guitarra flamenca

 

Sweep Picking

Voy a mostrarles cómo se hace en una escala. Se necesita práctica para desarrollar la velocidad con esto, pero esta es la manera más rápida para recoger una vez que se acostumbre a ella.  Esta técnica es similar al picking alternativo que acarrea en forma ascendente y descendente en cada nota. El siguiente diagrama muestra la escala de Do. La bajada es cuando rasgueo hacia el suelo. Un upstoke es cuando rasgueo hacia arriba.

 ^ = V = carrera ascendente descendente Técnica Flatpickin.   clases de guitarra gratis, clases de guitarra electrica, clases de guitarra flamenca

Acorde Rasgueando

Rasgando de manera ascendente y descendente de sonido lo hace sonar diferente a pesar de ser el mismo acorde. Esto se debe al pulsar las cuerdas en un orden diferente. Los diferentes sonidos de la cuerda, llamados voicings, no son demasiado importantes en este momento. Probalo y oirás una ligera diferencia en el sonido de la cuerda.

Técnica Flatpickin.   clases de guitarra gratis, clases de guitarra electrica, clases de guitarra flamenca
, , , , ,

PICKING.


E||————————|————————|————————|
B||———–0–3———|———–0–3———|———–0–3—-3—-|
G||—–2——————|—–2——————|—–2——————|
D||——–0———-0—-|——–0———-0—-|——–0———-0—-|
A||————————|————————|————————|
D||–0———–0———|–0———–0———|–0———–0———|


————————|—–2——-5———|—–5——-7–5——-|
–3–0——————|–3——————–|–6———————|
———–2————|———————–|————————|
——–0———-0—-|——–0———0—-|——–0———-0—-|
————————|———————–|————————|
–0———–0———|–0———-0———|–0———-0———-|


—–0—————–|—–0——————|—————–0——-|
–6———-3———|–6————-3——-|—–3——————-|
———————–|————————|———–0————-|
——–0———0—-|——–0———-0—-|——–0———–0—-|
———————–|————————|————————-|
–0———-0———|–0———-5———-|–5———–5———-|


———————-||
–3——————-||
———————-||
——-0———0—-||
———————-||
–0———0———||




RASGEO.


E||———————|—–3—–0—–3——–|————————–|
B||———————|————————–|—–3—–0—–3——–|
G||———————|———————–0–|———————–0–|
D||———————|——–2———–2—–|——–0———–0—–|
A||———–0—-2—-|–3———–3———–|————————–|
E||——3————–|————————–|–3———–3———–|


————–0———–|————————|—–3—–0—–3——–|
—–1———–3–1—–|–0–1–2–3————|————————–|
———–2———–2–|————————|———————–0–|
——–0———–0—–|————————|——–2———–2—–|
————————–|——–0—–1—-2—-|–3———–3———–|
–2———–2———–|–3———————|————————–|


————————–|————–0———-|———————-|
—–3—–0—–3——–|—–1———–3–1—-|–0————–3—-|
———————–0–|———–2————-|——-2—-0———|
——–0———–0—–|——–0———–0—-|————0———|
————————–|————————-|———————-|
–3———–3———–|–2———–2———-|–3—-2—-3———|


—–0——————–|————————–|
———–3—–1——–|—–3—–1—–0——–|
———————–0–|———————–0–|
——–2———–2—–|——–0———–0—–|
–3———–3———–|————————–|
————————–|–3———–3———–|


————————–|————————|—–0——————–|
—–1—–0————–|–0–1–2–3————|———–3—–1——–|
—————–2—–3–|————————|———————–0–|
——–0———–0—–|————————|——–2———–2—–|
————————–|——–0—–1—-2—-|–3———–3———–|
–2———–2———–|–3———————|————————–|


————————–|————–0———–|———————||
—–3—–1—–0——–|—–1———–3–1—–|–0——————||
———————–0–|———–2———–2–|–0—-2—-0——–||
——–0———–0—–|——–0———–0—–|–0—-0—-0——–||
————————–|————————–|———————||
–3———–3———–|–2———–2———–|–3—-2—-3——–||

Ejercicio Picking y Rasgueo.   clases de guitarra gratis, clases de guitarra electrica, clases de guitarra flamenca
, , , , ,