En estos ejercicios utilizaremos escalas pentatónicas mayores y menores en diferentes tonalidades, la peculiaridad que tienen es que recorremos prácticamente todo el mástil en el ejercicio, combinando los diferentes patrones de cada escala, son ejercicios muy buenos para conseguir fluidez en los cambios de cuerda y coordinación. Es importante que al realizar el cambio de cuerda, este sea suave y fluido así lograremos sensación de continuidad en el ejercicio. Si por el contrario, somos bruscos al cambiar de cuerda el ejercicio no sonará bien, y perderemos la fluidez que finalmente hace que la ejecución sea correcta.

Escalas pentatónicas en guitarra – La ejercitación es la base para aprenderse todo el diapasón

 

Es recomendable practicar con un metrónomo e ir aumentando la velocidad mientras logren ir perfeccionando los ejercicios, pueden ejecutarlos a base de púa contrapúa, ligados, economy picking. Comiencen si así lo desean con la típica púa-contrapúa y una vez controlado pueden probar otras técnicas:

Escala pentatónica Mayor de Fa (3 notas por cuerda):

|-----17-15-13---------------------------------------------------------
|-----------------15-13-10---------------------------------------------
|-----------------------------12-10--7---------------------------------
|----------------------------------------10--7--5----------------------
|---------------------------------------------------8--5--3------------
|------------------------------------------------------------5--3--1---

|---------------------------------------------------------13--15--17---
|---------------------------------------------10--13--15---------------
|----------------------------------7--10--12---------------------------
|------------------------5--7--10--------------------------------------
|---------------3--5--8------------------------------------------------
|------1--3--5---------------------------------------------------------

Escala pentatónica Mayor de Fa (4 notas por cuerda):

|---------------------------------------------------------------------
|--------------------------------------------------------------18-----
|--------------------------------------------------17--19--22---------
|----------------------------------12--15--17--19---------------------
|-------------------8--10--12--15-------------------------------------
|------3--5--8--10----------------------------------------------------

|---------------------------------------------------------
|---------------------------------------------------------
|-------------------------------------------------17------
|-------------------------------------17--19--22----------
|---------------------12--15--17--20----------------------
|------8--10--13--15--------------------------------------

Escala pentatónica Menor de Re (3 notas por cuerda):

|-----17-15-13---------------------------------------------------------
|-----------------15-13-10---------------------------------------------
|-----------------------------12-10--7---------------------------------
|----------------------------------------10--7--5----------------------
|---------------------------------------------------8--5--3------------
|------------------------------------------------------------5--3--1---

|---------------------------------------------------------13--15--17---
|---------------------------------------------10--13--15---------------
|----------------------------------7--10--12---------------------------
|------------------------5--7--10--------------------------------------
|---------------3--5--8------------------------------------------------
|------1--3--5---------------------------------------------------------

Escala pentatónica Menor de Si (3 notas por cuerda):

|-----14-12-10---------------------------------------------------
|-----------------12-10------------------------------------------
|-------------------------11--9--7-------------------------------
|------------------------------------9--7--4---------------------
|---------------------------------------------7--5--2------------
|------------------------------------------------------5--2--0---

|--------------------------------------------------10-12-14------
|------------------------------------------10-12-----------------
|---------------------------------7--9-11------------------------
|------------------------4--7--9---------------------------------
|---------------2--5--7------------------------------------------
|------0--2--5---------------------------------------------------

Escala pentatónica Mayor de Sol (3 notas por cuerda):

|-----15-12-10--------------------------------------------------
|-----------------12-10--8---------------------------------------
|-----------------------------9--7-------------------------------
|-----------------------------------9--7--5----------------------
|--------------------------------------------7--5--2-------------
|-----------------------------------------------------5--3--0----

|-------------------------------------------------10-12-15------
|---------------------------------------8-10-12-----------------
|---------------------------------7--9--------------------------
|------------------------5--7--9--------------------------------
|---------------2--5--7-----------------------------------------
|------0--3--5--------------------------------------------------

Comments

comments

, , , , , , , , , , , , , , , , , , , ,
Trackback

no comment untill now

Add your comment now