Escala de Do

En la lección anterior, que sirvió para aprendernos las notas de la primera posición (los tres primeros espacios del diapasón), recorrimos las notas que pertenecen a la escala de do mayor, puesto que no tocamos sostenido (o bemol) alguno.

Las notas de la escala de Do mayor no tienen sostenidos (#), ni bemoles (b), son las que se tocan con las teclas blancas de un piano (las teclas negras son las notas que no tienen nombre propio). Aquí muestro la escala en cuestión:

Escala de Do.

 

Te recomiendo que practiques la escala ascendente y descendentemente varias veces sin detenerte y que vayas nombrando las notas que vas tocando, para que puedas aprenderte los nombres de las notas y su posición en el diapasón.

Este es el orden en que debes practicar la escala empezando por el Do de la tercera cuerda: C, D, E, F, G, A, B, C, B, A, G, F, E, D y C. Practica la escala ida y vuelta, ida y vuelta sin detenerte, a una velocidad lenta.

Aquí te muestro en tablatura como debes practicar la escala de Do mayor. Las líneas con los “puntos” son símbolos de repetición. Como no te indico cuantas veces hay que repetir lo que esta entre esos símbolos, lo repites cuantas veces quieras, pero cuando decidas terminar lo haces en la nota de Do grave.

       C   D   E   F   G   A   B   C   B   A   G   F   E   D       C

   ||----------------------------------------------------------||---------||
   ||--------------------------0---1---0-----------------------||---------||
   |o------------------0---2---------------2---0---------------o|---------||
   |o------0---2---3-------------------------------3---2---0---o|---------||
   ||--3-------------------------------------------------------||--3------||
   ||----------------------------------------------------------||---------||
       3   -   2   3   -   2   -   1   -   2   -   3   2   -       3

Ejercicios Melódicos

Variando la secuencia de las notas de la escala de Do mayor podemos crear una serie de melodías. Abajo te muestro un par de ejemplos. Practícalos y después intenta crear tus propias líneas o ideas melódicas, pueden tener ritmo o no (todas las notas con la misma duración de sonido), como prefieras.

 |---------------------------------------------------------------------------||
 |---------------------------------------------------------------------------||
 |--------------------------------0----2----0--------------------------------||
 |-------0----2----0----2----3-------------------2----3----0-----------------||
 |--3-----------------------------------------------------------3------------||
 |---------------------------------------------------------------------------||
    3    -    2    -    2    3    -    2    -    2    3    -    3

 |---------------------------------------------------------------------------||
 |--1----------------------------------1----0--------------------------------||
 |-------2----0----2----0---------2--------------2----0----------------------||
 |---------------------------3-----------------------------3----2----0-------||
 |------------------------------------------------------------------------3--||
 |---------------------------------------------------------------------------||
    1    2    -    2    -    3    2    1    -    2    -    3    2    -    3

La escala de Do mayor (como cualquier otra) puede ser tocada en varias partes del diapasón, pero es en esta posición la que primero tenemos que dominar.

Comments

comments

, , , , , , , , , , , , , , , , , , , ,
Trackback

no comment untill now

Add your comment now