Primera posición ¿Qué significa? Nos referimos al diapasón de la guitarra, entre sus primeos tres trastes. Te recomiendo que utilices una púa, y que hagas uso del Plumilleo Alternado (primero hacia abajo y luego hacia arriba). El objetivo es recorrer las notas de la prime44ra posición desde E de la 6ta. cuerda, hasta el G de la 1ra. cuerda. Tienes que nombrar la nota que vayas tocando. Este ejemplo lo pongo a continuación para que sea más sencillo entender:

       E   F   G   A   B   C   D   E   F   G   A   B   C   D   E   F   G

    |----------------------------------------------------------0---1---3---|
    |----------------------------------------------0---1---3---------------|
    |--------------------------------------0---2---------------------------|
    |--------------------------0---2---3-----------------------------------|
    |--------------0---2---3-----------------------------------------------|
    |--0---1---3-----------------------------------------------------------|

       -   1   3   -   2   3   -   2   3   0   2   -   1   3   -   1   3

Primera posición en guitarra: las claves para comprender cómo digitar nuestros dedos en el diapasón y arpegiar cuerda por cuerda de manera correcta.

 

Los números que están abajo de la tablatura indican el dedo de la mano izquierda que vas a utilizar para pulsar la nota en el diapasón. El signo (–) significa que no se utiliza ningún dedo, ya que la cuerda se toca al aire.

Co0mo recomendación indico que sigas cantando el nombre de la nota que vas tocando, y que cuando llegues a la nota de G de la 1ra. cuerda, que regreses a tocar las notas pero de forma descendente, de ésta manera:

       G   F   E   D   C   B   A   G   F   E   D   C   B   A   G   F   E

    |--3---1---0-----------------------------------------------------------|
    |--------------3---1---0-----------------------------------------------|
    |--------------------------2---0---------------------------------------|
    |----------------------------------3---2---0---------------------------|
    |----------------------------------------------3---2---0---------------|
    |----------------------------------------------------------3---1---0---|

       3   1   -   3   1   -   2   -   3   2   -   3   2   -   3   1   -
, , , , , , , , , , , , , , , , , , , , , , , , , , , , , , ,
Este ejercicio se llama cromático: porque en él se incluyen las 12 notas existentes, las notas con nombre propio y las otras (sostenidos y bemoles). 
 

Mano izquierda en guitarra: Es muy importante que tienes que recordar para realizar el ejercicio, a diferencia de la notación de los dedos de la mano derecha que es con sus iniciales, los dedos de la mano izquierda se nombran con números excluyendo al pulgar: 1-índice, 2-medio, 3-anular y 4-meñique.

 

Primera Parte: Este es el orden en que vas a utilizar tus dedos de la mano izquierda en cada compás (o separaciones en la tablatura): 1 – 2 – 3 – 4. Irás subiendo de trastes, desde el primero hasta el noveno. Aconsejamos: relajar tu mano derecha, trata de ir lento, tratando de no errar en cada pisada, procurando que cada nota que pises tenga un sonido claro. Cada nota debe tener la misma duración de sonido.En la parte superior de la tablatura indicamos dos técnicas de golpear las cuerdas para practicar el ejercicio: usando los dedos índice y medio (usa el golpe apoyado y luego el libre) y el Plumilleo Alternado (con púa). Los números de abajo de la tablatura te indican con que dedo de la mano izquierda debes presionar la nota que se te indica.

   i  m  i  m    i  m  i  m    i  m  i  m    i  m  i  m   etc.
   ^  v  ^  v    ^  v  ^  v    ^  v  ^  v    ^  v  ^  v   etc.

 |-1--2--3--4--|-2--3--4--5--|-3--4--5--6--|-4--5--6--7--|-5--6--7--8--|
 |-------------|-------------|-------------|-------------|-------------|
 |-------------|-------------|-------------|-------------|-------------|
 |-------------|-------------|-------------|-------------|-------------|
 |-------------|-------------|-------------|-------------|-------------|
 |-------------|-------------|-------------|-------------|-------------|
   1  2  3  4    1  2  3  4    1  2  3  4    1  2  3  4    1  2  3  4

 |-6--7--8--9--|-7--8--9--10--|-8--9--10--11--|-9--10--11--12--||
 |-------------|--------------|---------------|----------------||
 |-------------|--------------|---------------|----------------||
 |-------------|--------------|---------------|----------------||
 |-------------|--------------|---------------|----------------||
 |-------------|--------------|---------------|----------------||
   1  2  3  4    1  2  3   4    1  2   3   4    1   2   3   4

Segunda Parte: Ahora el orden en que comenzarás a utilizar los dedos de la mano izquierda en cada compás (o separación) será: 4 – 3 – 2 – 1. Hay que comenzar en el traste 12 y terminar en el 1er. traste. La palma de la mano izquierda no debe tocar el mástil de la guitarra.

    i   m   i  m     i   m  i  m     i  m  i  m    i  m  i  m    etc.
    ^   v   ^  v     ^   v  ^  v     ^  v  ^  v    ^  v  ^  v    etc.

 |-12--11--10--9--|-11--10--9--8--|-10--9--8--7--|-9--8--7--6--|-8--7--6--5--|
 |----------------|---------------|--------------|-------------|-------------|
 |----------------|---------------|--------------|-------------|-------------|
 |----------------|---------------|--------------|-------------|-------------|
 |----------------|---------------|--------------|-------------|-------------|
 |----------------|---------------|--------------|-------------|-------------|
    4   3   2  1     4   3  2  1     4  3  2  1    4  3  2  1    4  3  2  1

 |-7--6--5--4--|-6--5--4--3--|-5--4--3--2--|-4--3--2--1--||
 |-------------|-------------|-------------|-------------||
 |-------------|-------------|-------------|-------------||
 |-------------|-------------|-------------|-------------||
 |-------------|-------------|-------------|-------------||
 |-------------|-------------|-------------|-------------||
   4  3  2  1    4  3  2  1    4  3  2  1    4  3  2  1

Tercera Parte: Juntarás ambas partes: empiezas en el 1er. traste con el mecanismo 1-2-3-4 hasta el traste 12, y regresas con el mecanismo 4-3-2-1 del traste 12 al 1ro. sin detenerte.

Un vicio muy común cuando se empieza a tocar la guitarra, es querer correr mucho enseguida, debemos pensar que la velocidad siempre viene después de la precisión y con ello la calidad en el sonido que producimos.

Si has podido comprender el ejercicio, es importante que lo practiques a diario, que practiques tu “Araña”.

, , , , , , , , , , , , , , , , , , , , , , , , , , , , , , , , , , , ,

Mano derechaEn ésta lección empezaremos a estudiar los principios de la técnica de la mano abierta o libre. Cada mano tiene un rol al tocar guitarra, por lo que aprenderás a usar de ella, los dedos índice y medio de la mano derecha (izquierda si eres zurdo) para tocar notas. Recomendamos tener las uñas cortas.

A los dedos de la mano derecha se les asignan las letras iniciales de su nombre en español: p (pulgar), i (índice), m (medio) y a (anular). Esta notación se utiliza para indicar la digitación de escalas, arpegios y melodías. Como te dije anteriormente, en ésta lección sólo usaremos los dedos índice y el medio; y el pulgar, que sólo nos servirá para facilitarnos el uso de uno de éstos dos golpes. Existen dos técnicas para golpear las cuerdas con éstos dos dedos: el Golpe Apoyado y el Golpe Libre.

                                   

Golpe apoyadoGolpe Apoyado: Este golpe es el más fundamental y conveniente cuando se tocan sucesiones de notas sencillas en la guitarra, se utiliza cuando determinado énfasis se requiere. También es la manera de obtener un tono claro y fuerte, probablemente su uso es la gran diferencia entre un guitarrista profesional y uno amateur al saber como y donde usarlo. Te explico éste golpe dividiéndolo en dos pasos:

  1. Preparación: La punta del dedo indicado se apoya en la cuerda que va a ser tocada.
  2. Consumación: El dedo toca la cuerda y después descansa en la cuerda de arriba con el esfuerzo muscular.

Para darle facilidad a éste golpe apoya tu dedo pulgar en la sexta cuerda. En la siguiente tablatura te muestro un ejercicio para que utilices ésta técnica. En el tienes que alternar los dedos índice y medio para tocar la primera cuerda al aire (cuerda de Mi) 16 veces. Recuerda, apoya el dedo con que tocaste la primera cuerda en la 2da. cuerda.

i   m   i   m   i   m   i   m      i   m   i   m   i   m   i   m

 |--0---0---0---0---0---0---0---0---|--0---0---0---0---0---0---0---0---|
 |----------------------------------|----------------------------------|
 |----------------------------------|----------------------------------|
 |----------------------------------|----------------------------------|
 |----------------------------------|----------------------------------|
 |----------------------------------|----------------------------------|
         

Golpe Libre

Golpe libreBueno, lo contrario al golpe apoyado. No apoyes el dedo pulgar en la sexta cuerda y el dedo que debe tocar la nota indicada (índice o medio) no debe apoyarse en la cuerda superior. El golpe libre se usa en los arpegios, donde el apoyado podría inhibir velocidad, o para el contraste tonal con el golpe apoyado, o en casos en donde un golpe apoyado haria que se tocara la cuerda superior cuando esta debe de seguir sonando.

Realiza el mismo ejercicio de arriba pero con golpes libres. También realiza los dos tipos de golpes (o ataques) pero empezando con el dedo medio:

m   i   m   i   m   i   m   i      m   i   m   i   m   i   m   i

|--0---0---0---0---0---0---0---0---|--0---0---0---0---0---0---0---0---|
|----------------------------------|----------------------------------|
|----------------------------------|----------------------------------|
|----------------------------------|----------------------------------|
|----------------------------------|----------------------------------|
|----------------------------------|----------------------------------|
, , , , , , , , , , , , , , , , , , , , , , ,

¿Qué es una tablatura? Un método de representar la música por medio de diagramas que muestran al intérprete dónde poner los dedos en el diapasón del instrumento, en lugar de señalar el sonido y el ritmo que se producen como ocurre en la partitura.

Estructura de la Tablatura

Está integrada por 6 líneas que representa las seis cuerdas de la Guitarra. La línea superior representa la primera cuerda, mientras que la línea inferior representa la sexta, o la más gruesa de la Guitarra. Una línea vertical indica el principio o final de un compás y la doble línea vertical indica el final de la tablatura. Como se puede ver en el ejemplo:

1ra. cuerda   e  |----------------------------------||
2da. cuerda   B  |----------------------------------||
3ra. cuerda   G  |----------------------------------||
4ta. cuerda   D  |----------------------------------||
5ta. cuerda   A  |----------------------------------||
6ta. cuerda   E  |----------------------------------||

Las letras e, B, G, D, A y E indican el nombre de la nota que produce la cuerda tocada al aire, de la más delgada a la más gruesa. La ‘e’ minúscula es la nota de Mi pero más aguda (dos octavas más). A veces se ven éstas letras en las tablaturas y otras veces no. La razón de que no las lleva es que esta es la afinación estándar y se da por entendido que es de esta forma.

Las Pisadas en la tablatura

Los números que encontremos sobre cada línea indican el espacio en donde se debe pisar la cuerda con los dedos de la mano izquierda, y tocarla con la mano derecha. Por ejemplo, si el número 3 ésta sobre la 2da. línea, significa que debemos tocar (hacer sonar) la 2da. cuerda pisada en el 3er. espacio (o traste). El “0” (cero) indica que se debe tocar la cuerda al aire (sin pisarla).

                 |-----------------------------------------||
                 |-------3---------------------------------||
                 |-----------------------------------------||
                 |-----------------------------------------||
                 |-----------------------------------------||
                 |-----------------------------------------||

Cuando se presente un número fuera de la tablatura (generalmente abajo), en este caso el 2, indica con cual dedo de la mano izquierda debe ser presionada la posición que te indica en la tablatura.

El número 1 indica el dedo índice de la mano izquierda.
El número 2 indica el dedo medio de la mano izquierda.
El número 3 indica el dedo anular de la mano izquierda.
El número 4 indica el dedo meñique de la mano izquierda.

, , , , , , , , , , , , , , , , , , , , , , , , , , , , , , , , , , , , , , ,

A lo largo del diapasón están los trastes instalados en intervalos, que dividen cada cuerda en notas. Cuando se pisa una cuerda sobre un espacio entre dos trastes y se pulsa (o puntea) con la mano derecha, la cuerda vibra entre el traste y el puente produciéndose una nota.

Si queremos aprender y entender como están situadas las notas en el diapasón tenemos que saber como esta conformada la escala musical. Ahora, existe una distancia tonal entre cada tono:

La distancia tonal (intervalo) entre Mi y Fa, y entre Si y Do es de un semitono (ó 1/2 tono). Para entender como se aplica la escala musical en la guitarra, y para comprender esas distancias tonales analizaremos las notas que podemos encontrar en la 5ta. cuerda (La – A).

 

El diagrama de arriba representa al diapasón, la línea de arriba es la primera cuerda (E aguda) y la línea inferior es la sexta cuerda (E grave). Y los números de arriba te dicen el número de espacio entre los trastes, se toma como primero al que esta pegado al clavijero.

Como se puede observar en él, hay un espacio saltado entre la nota que produce la quinta cuerda al aire (A) y la nota B, la siguiente nota de la escala musical. Esto es porque entre A y B hay una distancia de 1 tono, o sea que si “caminamos” espacio por espacio a lo largo del diapasón sobre cualquier cuerda estaremos avanzando en semitonos. Ahora vemos que enseguida de la nota B, en el tercer espacio se encuentra la nota C. Vuelve a revisar la gráfica de las distancias tonales y te darás cuenta que entre éstas dos notas (B y C) hay una distancia de 1/2 tono, es por eso que entre esas dos notas no hay un espacio en medio de ellas como entre A y B.

Llegamos al 12vo. espacio en donde nos encontramos de nuevo a la nota A. Si recorremos las notas de cada cuerda hasta el 12vo. espacio de cada una de ellas nos pasara lo mismo, encontraremos la misma nota con la que empezamos. He aquí el diagrama con todas las notas:

 
  __     1     2     3     4     5     6     7     8     9    10    11    12
    \
  e  ||--F--|-----|--G--|-----|--A--|-----|--B--|--C--|-----|--D--|-----|--E--|
  B  ||--C--|-----|--D--|-----|--E--|--F--|-----|--G--|-----|--A--|-----|--B--|
  G  ||-----|--A--|-----|--B--|--C--|-----|--D--|-----|--E--|--F--|-----|--G--|
  D  ||-----|--E--|--F--|-----|--G--|-----|--A--|-----|--B--|--C--|-----|--D--|
  A  ||-----|--B--|--C--|-----|--D--|-----|--E--|--F--|-----|--G--|-----|--A--|
  E  ||--F--|-----|--G--|-----|--A--|-----|--B--|--C--|-----|--D--|-----|--E--|
  __/
        

 

Sostenidos y Bemoles.

Hablaremos precisamente de los “espacios en blanco”. Las notas que vemos en el diagrama anterior (C-D-E-F-G-A-B) las llamaremos notas con nombre propio, entre ellas están esos espacios intermedios que también son notas. Esas notas son sostenidos y/o bemoles.

Sostenido: Nota elevada un semitono (más aguda). Se simboliza con el signo #.
Bemol: Nota bajada un semitono (más grave). Se simboliza con el signo b.

Por ejemplo, La nota que se encuentra en el tercer traste en la segunda cuerda es Re. Cuando la hacemos sostenida avanzamos un semitono, y cuando la hacemos bemol nos retrasamos un semitono. Veamos como se ve esto en un diagrama:

 
                    __      1       2       3       4
                      \
                    e  ||-------|-------|-------|-------|
                    B  ||-------|--Db---|---D---|--D#---|
                    G  ||-------|-------|-------|-------|
                    D  ||-------|-------|-------|-------|
                    A  ||-------|-------|-------|-------|
                    E  ||-------|-------|-------|-------|
                    __/
        

Ahora bien, que pasa si queremos hacer sostenida la nota Do que se encuentra en el primer traste en la segunda cuerda – a partir de su posición avanzamos un semitono -. O sea que la nota del segundo traste en la segunda cuerda tiene dos nombres: C# y Db (ambos totalmente válidos). Por eso a las notas que no son sostenidas ni bemoles les llamamos notas con nombre propio (nada más tienen un nombre). Veamos el siguiente diagrama:

 
                    __      1       2       3       4
                      \
                    e  ||-------|-------|-------|-------|
                    B  ||---C---|-C#/Db-|---D---|-------|
                    G  ||-------|-------|-------|-------|
                    D  ||-------|-------|-------|-------|
                    A  ||-------|-------|-------|-------|
                    E  ||-------|-------|-------|-------|
                    __/
, , , , , , , , , , , , , , , , , , , , , , , , , , , , , , , , , , , , , , , , , ,

Es importante aprender las notas musicales:

DO – RE – MI – FA – SOL- LA – SI

En el sistema americano de notación éstas 7 notas toman el nombre de las 7 primeras letras del alfabeto, pero empezando por la nota LA que es la que sirve de base para la afinación de todos los instrumentos.

A = LA E = MI
B = SI F = FA
C = DO G = SOL
D = RE

 


Si dominas estos acordes, con letras y notas respectivas, ejercitarás tu memoria a cada momento, hasta llegar a aprendertelas a todas. Recomiendo tener ésta tabla a la mano, para cualquier situación: sea olvido o falta de práctica.

Ejemplos de los cifrados para acordes:

G = Sol mayor Gm = Sol menor G7 = Sol séptimo
Gm7 = Sol menor séptimo Gb = Sol bemol G# = Sol sostenido

Por el momento sólo debes saber que todos estos tipos de cifrados (m, 7, m7, b y #) son simplemente acordes diferentes pero todos sobre la base de un acorde, en este ejemplo de Sol.

, , , , , , , , , , , , , , , , , , , , , , , , , , , , , , , , , , , , , , ,